lets hear it, whats your all time favorite sg tune

Discussion in 'Gibson SG' started by damian, Apr 18, 2005.

  1. maxguitar

    maxguitar Member

    Joined:
    Dec 14, 2004
    Messages:
    181
    Likes Received:
    0
    Location:
    Burlington, VT
    Awesome! I didn't know there was an SG on Hey Bulldog. My band covers that one, along with Me and my Monkey.

    Don't wanna overuse the Ac/DC library so I'm gonna try somethin new- Don't Fear The Reaper by Blue Oyster Cult. I'm pretty sure that guy used an SG. The solo at the end of that tune is a friggin scorcher!
     
  2. crippe

    crippe Member

    Joined:
    Dec 12, 2004
    Messages:
    253
    Likes Received:
    0
    Location:
    Sweden
    "We need more cowbell!" :)
     
  3. Mike McLenison

    Mike McLenison Member

    Joined:
    Dec 12, 2004
    Messages:
    312
    Likes Received:
    0
    More cowbell coming right up:
    [​IMG]
     
  4. bscepter

    bscepter Member

    Joined:
    Apr 9, 2005
    Messages:
    368
    Likes Received:
    1
    A Quick One (While He's Away): The Who
    Whole Lotta Rosie: AC/DC
    Sweet Leaf: Sabbath
    Paperback Writer: Beatles
     
  5. balboa

    balboa Member

    Joined:
    Jan 29, 2005
    Messages:
    37
    Likes Received:
    0
    have a drink on me or really any AC/DC song
     
  6. skidshark

    skidshark Active Member

    Joined:
    Dec 12, 2004
    Messages:
    8,439
    Likes Received:
    6
    Location:
    tenn-O-see
    hehehee...i remember the SNL skit about them recording that song...hilarious! :D
     
  7. AutoStatic

    AutoStatic Member

    Joined:
    Feb 5, 2005
    Messages:
    48
    Likes Received:
    0
    Location:
    Amsterdam, The Netherlands
    Too many songs... But to name a few:
    Sunflower Suit - Buffalo Tom
    Waiting Room - Fugazi
    Rebound - Sebadoh
    My Sister - Juliana Hatfield

    And then I omit The Lemonheads, Veruca Salt and a lot of the old stuff....
     
  8. Strange Brew

    Strange Brew Well-Known Member

    Joined:
    Dec 12, 2004
    Messages:
    4,816
    Likes Received:
    49
    Location:
    England
    Veruca Salt..... is that a cue for some more Nina Gordon pix, in the "Girls with SGs" thread? Huh? Please?
     
  9. lanman

    lanman Member

    Joined:
    Jan 6, 2005
    Messages:
    36
    Likes Received:
    0
    War Pigs
     
  10. E.Buzz

    E.Buzz Member

    Joined:
    Mar 21, 2005
    Messages:
    516
    Likes Received:
    2
    Location:
    Waukegan IL
    Let there be rock by AC/DC. The flaming amps make it (TNT could tell you, I bet), on top of it being the coolest AC/DC tune ever. :p
     
  11. damian

    damian Member

    Joined:
    Apr 13, 2005
    Messages:
    98
    Likes Received:
    2
    Location:
    hurricane alley wpb, florida
    fugazi what a great band, i forgot about them, nothing like a beat to hell white standard and a fat jcm800 to wake up the neighbors
     
  12. guitarshred

    guitarshred Guest

    Anything for AC DC High Voltage Album... I like "Gone Shootin"....


    Shred :twisted:
     
  13. MainFrame185

    MainFrame185 Member

    Joined:
    Mar 14, 2005
    Messages:
    118
    Likes Received:
    0
    Location:
    Eagle River, Alaska
    I'm with on that one brother! Speaking of which, does anyone know exactly how Angus plays those opening chords?

    This doesn't seem right...

    1-------------------------------------------------
    2-----2-------------------------------------------
    3--4----4-4------4-3------3^-------1-2-1----------
    4-------------4------4-4------4--4-------4--------
    5-------------------------------------------------
    6-------------------------------------------------


    1-------------------------------------------------
    2-----2-------------------------------------------
    3--4----4-4------4-3------------------------------
    4-------------4-------4-4~------------------------
    5-------------------------------------------------
    6-------------------------------------------------


    1-----------------2~---x----2---2-----------------
    2-----*4-4----4-----------------------------------
    3--4-------4----4-------4-4---4-----4~------------
    4-------------------------------------------------
    5-------------------------------------------------
    6-------------------------------------------------
     
  14. TNT

    TNT Active Member

    Joined:
    Dec 18, 2004
    Messages:
    8,161
    Likes Received:
    46
    Location:
    Noblesville, IN
    Guitarshred:"Gone Shootin" is on Powerage and I love playin that song!

    You Shook Me All Night Long intro
    b=1/4
    1----------------------------------------------------------------------------------
    2--8----10--8--8------8--7-----------3-----------------------3-----------------
    3--7-----7--7-----7---------7---------2------2b---2----------2-----------------
    4-------------------------------0-------0------3b---0--3s4--------3b--0--------
    5----------------------------------------------------------------------------------
    6----------------------------------------------------------------------------------

    1------------------------------------2----
    2--8----10--8--8-----8--7---------3----
    3--7---------------7--------7-------2----
    4------------------------------0-----0----
    5------------------------------------------
    6------------------------------------------
     
  15. guitarshred

    guitarshred Guest

    TNT..
    Yeah, that's right. Got my voltages mixed up...very hazardous.




    Shred :twisted:
     
  16. 68GibsonSG

    68GibsonSG Member

    Joined:
    Feb 11, 2005
    Messages:
    542
    Likes Received:
    0
    Location:
    Long Island, NY
    8)

    i agree
     
  17. aisuru

    aisuru Member

    Joined:
    Dec 20, 2004
    Messages:
    536
    Likes Received:
    0
    Location:
    Skottland
    at the moment i'd say either Symptom of the Universe, the Writ, Supernaut or Sweet Leaf 8)
     
  18. highvoltage66

    highvoltage66 Member

    Joined:
    Mar 2, 2005
    Messages:
    69
    Likes Received:
    0
    There's too many good songs.

    How can u make me pick?!?!? :shock:
     
  19. SG Dick

    SG Dick Member

    Joined:
    Dec 12, 2004
    Messages:
    173
    Likes Received:
    1
    How could we forget Frank Marino? Frank did two covers on his "Mahogany Rush Live" album that put the original artists to shame... "Johnny B. Good" and "Purple Haze".

    If you've never heard Frank or these songs... you should drop what you're doing and drive until you find the album. NOW! Frank is probably the #1 unsung SG hero of all time.
     
  20. jigman

    jigman Member

    Joined:
    Feb 1, 2005
    Messages:
    43
    Likes Received:
    0
    AC/DC-Ride On
    AC/DC-Back in Black
    Cream-Steppin out
    Sound Garden-Black hole Sun
    Quick Silver MS-Who do ya Love
    Black Sabbath-War Pigs
    Everything Duane Allman, Gary Rossington and Derek trucks Plays on SG's which is just about all Slide.
    AC/DC-Thunderstruck
     

Share This Page